Navigation
 Portal
 Index
 Memberlist
 Profile
 FAQ
 Search
Tweet
Follow Anhorseforum on Twitter
Social bookmarking

Social bookmarking digg  Social bookmarking delicious  Social bookmarking reddit  Social bookmarking stumbleupon  Social bookmarking slashdot  Social bookmarking yahoo  Social bookmarking google  Social bookmarking blogmarks  Social bookmarking live      

Bookmark and share the address of An Horse- The Forum on your social bookmarking website

Bookmark and share the address of An Horse Fan Forum on your social bookmarking website


An Horse Tabs

View previous topic View next topic Go down

An Horse Tabs

Post by LVeg on Tue 07 Apr 2009, 7:53 pm

Does anyone have any An Horse tabs? I took the pleasure of tabbing one of my faves "Little Little Little".

TABS

Little Little Little

Capo 4th fret
Standard tuning

I’m not going to show how many times to play each chord or the strumming pattern. You can figure it out for the most part by listening to the cd and watching videos.
Little Little Little- winkedinkie is an excellent reference.

Chorus:
e ------------------------------------
B------------------------------------
G------------------------------------
A 2-----------------------5--------3
E 3-----------------------5--------3
Oh my god you’re a hand full
And oh my god these hands are so small
Oh my god I’m a hand full
And oh my god your hands got so

e -------------------------------------
B -------------------------------------
G -------------------------------------
A 7--------------3--------------------
E 7--------------3--------------------
full of me oh so completely

Verse
(Same chords as Chorus)
I thought I needed a suitcase
So I could pack this all away
I thought I needed a cold place
So when it snowed
I could cuddle up to someone I don’t know

Chorus

Verse
I thought I needed a brave face
For one whole year I burned so brightly
I thought I needed a new place
But I looked around
And this was the town that I found
That I found

e -------------------------------------
B 3------------------------------------
G 2------------------------------------
D-------------------------------------
A 1-----------------------------------
E ------------------------------------
Believe me believe me
When I say

e -------------------------------------
B ------------------------------------
G ------------------------------------
D2-------------------------------------
A 2-----------------------------------
E 0-----------------------------------
I don’t want what I had yesterday

(chord pattern continues until end of bridge)

Believe me believe me
When I say
I feel awake for a month and one day
Believe me believe me
When I say
I gave everything away
Believe me believe me
When I say
I don’t want what I had yesterday

Chorus
avatar
LVeg
Family
Family

Posts : 111
Join date : 2009-04-07
Age : 28
Location : Rochester NY, The Cold and Gray

Back to top Go down

Re: An Horse Tabs

Post by Anna&lt3Kate on Sat 11 Apr 2009, 1:35 am

I don't have any at the moment, for thanks for doing this!!
avatar
Anna&lt3Kate
Newcomer
Newcomer

Posts : 9
Join date : 2009-04-03
Age : 27
Location : Adelaide, South Australia

http://www.facebook.com/people/Anna-Miliauskas/555364138

Back to top Go down

Re: An Horse Tabs

Post by LVeg on Sat 11 Apr 2009, 9:25 pm

no problem. I know how to play a few of their other songs but I think I'm the first person to go ahead with tabbing this one and posting it on the internet. I'm going to post Horizons and Scared as Fuck as soon as I get around to typing them out.

I feel kind of bad about posting other people's tabs though so I guess I'll just let other people find those floating around the net.
avatar
LVeg
Family
Family

Posts : 111
Join date : 2009-04-07
Age : 28
Location : Rochester NY, The Cold and Gray

Back to top Go down

Re: An Horse Tabs

Post by hermitstyle on Sat 11 Apr 2009, 10:32 pm

^^^^^no worries on posting other peoples tabs, just make sure that you give credit of where you got the tabs and who tabbed them out
avatar
hermitstyle
moderator
moderator

Posts : 174
Join date : 2009-04-01
Age : 34
Location : in a hot hot place

http://www.myspace.com/totalhate95

Back to top Go down

Re: An Horse Tabs

Post by Lunatone_13 on Wed 29 Apr 2009, 12:36 pm

could someone tab out "Horizons" >??
I would be most grateful Very Happy
avatar
Lunatone_13
Newcomer
Newcomer

Posts : 19
Join date : 2009-04-29
Age : 28
Location : flagstaff, Scarizona USA

http://www.myspace.com/phantomgate

Back to top Go down

Re: An Horse Tabs

Post by LVeg on Wed 29 Apr 2009, 2:00 pm

I can have it up by tonight. Also, I approve of your avatar and screenname.
avatar
LVeg
Family
Family

Posts : 111
Join date : 2009-04-07
Age : 28
Location : Rochester NY, The Cold and Gray

Back to top Go down

Re: An Horse Tabs

Post by Lunatone_13 on Wed 29 Apr 2009, 2:37 pm

LVeg wrote:I can have it up by tonight. Also, I approve of your avatar and screenname.

you are my hero! along with Nick 13 ;D
avatar
Lunatone_13
Newcomer
Newcomer

Posts : 19
Join date : 2009-04-29
Age : 28
Location : flagstaff, Scarizona USA

http://www.myspace.com/phantomgate

Back to top Go down

Re: An Horse Tabs

Post by LVeg on Wed 29 Apr 2009, 8:40 pm

Ok, so just watch out for the strumming pattern and the chord changes. I have the right chord progression but the strumming pattern may not be 100%. Just ask if you have any questions.

NOTE: Do not try to play with just down strokes, go up and down! It sounds better and is way easier.

Horizons

Capo: 4th Fret

Intro
e|---------------------------------------------------------------------------|
B|---------------------------------------------------------------------------|
G|---------------------------------------------------------------------------|
D|---------------------------------------------------------------------------|
A|22222222-77777777-22222222-77777777-------------------|
E|33333333-88888888-33333333-88888888-------------------|

Verse
e|---------------------------------------------------------------------------|
B|---------------------------------------------------------------------------|
G|---------------------------------------------------------------------------|
D|---------------------------------------------------------------------------|
A|22222222-77777777-----------------------------------------------|
E|33333333-88888888-----------------------------------------------|
A boat in the Gulf of Mexico
I know, I know it doesn’t snow
I know, I know where to go
In the book by my bed
That holds all the maps of places we travel
And where lives intersect

I know I know where to go
I know I know it doesn’t snow


Chorus
e|---------------------------------------------------------------------------|
B|---------------------------------------------------------------------------|
G|---------------------------------------------------------------------------|
D|---------------------------------------------------------------------------|
A|555-555-555-555----------------------------------------------------|
E|555-555-555-555----------------------------------------------------|
A roof top crows nest in a sea swell

e|---------------------------------------------------------------------------|
B|---------------------------------------------------------------------------|
G|---------------------------------------------------------------------------|
D|---------------------------------------------------------------------------|
A|333-333-333-333----------------------------------------------------|
E|333-333-333-333----------------------------------------------------|
Oh yes I’m doing so well

(repeat chord progression)
A roof top crows nest in a sea swell
Oh yes I can see so well
e|---------------------------------------------------------------------------|
B|---------------------------------------------------------------------------|
G|---------------------------------------------------------------------------|
D|---------------------------------------------------------------------------|
A|555-555-555-555----------------------------------------------------|
E|555-555-555-555----------------------------------------------------|
And you’re nowhere to be seen.

e|---------------------------------------------------------------------------|
B|---------------------------------------------------------------------------|
G|---------------------------------------------------------------------------|
D|------------------------2222222222222222------------------------|
A|333-333-333-333-2222222222222222------------------------|
E|333-333-333-333-0000000000000000------------------------|
And you’re nowhere to be seen.

e|---------------------------------------------------------------------------|
B|---------------------------------------------------------------------------|
G|---------------------------------------------------------------------------|
D|---------------------------------------------------------------------------|
A|22222222-77777777-22222222-77777777-------------------|
E|33333333-88888888-33333333-88888888-------------------|

Sometimes you lay out like a map in front of me
Well you know I have to go
But you know i’ll come home

When I climb on my ship and I look all around
I believe in horizons now
I believe in horizons now

Chorus

Bridge
e|---------------------------------------------------------------------------|
B|---------------------------------------------------------------------------|
G|---------------------------------------------------------------------------|
D|---------------------------------------------------------------------------|
A|2----------------------7-------------------------------------------------|
E|3----------------------8-------------------------------------------------|
I believe in horizons now
I believe in horizons now
I believe in horizons now
I believe in horizons now

e|---------------------------------------------------------------------------|
B|---------------------------------------------------------------------------|
G|---------------------------------------------------------------------------|
D|---------------------------------------------------------------------------|
A|22222222-77777777-----------------------------------------------|
E|33333333-88888888-----------------------------------------------|
I believe in horizons now
I believe in horizons now
I believe in horizons now
I believe in horizons now

Chorus

Outro
e|---------------------------------------------------------------------------|
B|---------------------------------------------------------------------------|
G|---------------------------------------------------------------------------|
D|22222222---------------------------------------------------------------|
A|22222222-2------------------------------------------------------------|
E|00000000-3------------5-------------8-------------------------------| x4
avatar
LVeg
Family
Family

Posts : 111
Join date : 2009-04-07
Age : 28
Location : Rochester NY, The Cold and Gray

Back to top Go down

Re: An Horse Tabs

Post by Lunatone_13 on Wed 29 Apr 2009, 11:30 pm

I love you
avatar
Lunatone_13
Newcomer
Newcomer

Posts : 19
Join date : 2009-04-29
Age : 28
Location : flagstaff, Scarizona USA

http://www.myspace.com/phantomgate

Back to top Go down

Re: An Horse Tabs

Post by hags on Fri 01 May 2009, 6:04 am

thanks for posting horizons Smile

hags
Newcomer
Newcomer

Posts : 1
Join date : 2009-05-01

Back to top Go down

Re: An Horse Tabs

Post by Lunatone_13 on Wed 06 May 2009, 11:25 pm

Anyone know the chords/Tabs to their cover of Abandon Abandon??
ultimate guitar only had the intro, and I didn't really like it much Sad
avatar
Lunatone_13
Newcomer
Newcomer

Posts : 19
Join date : 2009-04-29
Age : 28
Location : flagstaff, Scarizona USA

http://www.myspace.com/phantomgate

Back to top Go down

Re: An Horse Tabs

Post by Sponsored content


Sponsored content


Back to top Go down

View previous topic View next topic Back to top

- Similar topics

 
Permissions in this forum:
You cannot reply to topics in this forum